  0
SECTION
  2
HEADER
  9
$ACADVER
  1
AC1009
  9
$INSBASE
 10
0.0
 20
0.0
 30
0.0
  9
$EXTMIN
 10
-17.00493667598101
 20
-119.4642476643784
 30
0.0
  9
$EXTMAX
 10
1009.236678373859
 20
960.7029780310801
 30
0.0
  9
$LIMMIN
 10
0.0
 20
0.0
  9
$LIMMAX
 10
420.0
 20
297.0
  9
$ORTHOMODE
 70
     1
  9
$REGENMODE
 70
     1
  9
$FILLMODE
 70
     1
  9
$QTEXTMODE
 70
     0
  9
$MIRRTEXT
 70
     0
  9
$DRAGMODE
 70
     2
  9
$LTSCALE
 40
1.0
  9
$OSMODE
 70
     1
  9
$ATTMODE
 70
     2
  9
$TEXTSIZE
 40
0.2
  9
$TRACEWID
 40
0.05
  9
$TEXTSTYLE
  7
STANDARD
  9
$CLAYER
  8
ITEM_50
  9
$CELTYPE
  6
BYLAYER
  9
$CECOLOR
 62
   256
  9
$DIMSCALE
 40
1.0
  9
$DIMASZ
 40
2.5
  9
$DIMEXO
 40
1.0
  9
$DIMDLI
 40
7.0
  9
$DIMRND
 40
0.0
  9
$DIMDLE
 40
0.0
  9
$DIMEXE
 40
2.0
  9
$DIMTP
 40
0.1
  9
$DIMTM
 40
0.1
  9
$DIMTXT
 40
3.5
  9
$DIMCEN
 40
0.0
  9
$DIMTSZ
 40
0.0
  9
$DIMTOL
 70
     0
  9
$DIMLIM
 70
     0
  9
$DIMTIH
 70
     0
  9
$DIMTOH
 70
     0
  9
$DIMSE1
 70
     0
  9
$DIMSE2
 70
     0
  9
$DIMTAD
 70
     1
  9
$DIMZIN
 70
     0
  9
$DIMBLK
  1

  9
$DIMASO
 70
     1
  9
$DIMSHO
 70
     1
  9
$DIMPOST
  1

  9
$DIMAPOST
  1

  9
$DIMALT
 70
     0
  9
$DIMALTD
 70
     2
  9
$DIMALTF
 40
0.0393701
  9
$DIMLFAC
 40
1.0
  9
$DIMTOFL
 70
     1
  9
$DIMTVP
 40
0.0
  9
$DIMTIX
 70
     0
  9
$DIMSOXD
 70
     0
  9
$DIMSAH
 70
     0
  9
$DIMBLK1
  1

  9
$DIMBLK2
  1

  9
$DIMSTYLE
  2
GEN-ISO
  9
$DIMCLRD
 70
   256
  9
$DIMCLRE
 70
   256
  9
$DIMCLRT
 70
     2
  9
$DIMTFAC
 40
0.71
  9
$DIMGAP
 40
0.6
  9
$LUNITS
 70
     2
  9
$LUPREC
 70
     2
  9
$SKETCHINC
 40
0.1
  9
$FILLETRAD
 40
1.0
  9
$AUNITS
 70
     0
  9
$AUPREC
 70
     0
  9
$MENU
  1

  9
$ELEVATION
 40
0.0
  9
$PELEVATION
 40
0.0
  9
$THICKNESS
 40
0.0
  9
$LIMCHECK
 70
     0
  9
$BLIPMODE
 70
     0
  9
$CHAMFERA
 40
2.5
  9
$CHAMFERB
 40
2.5
  9
$SKPOLY
 70
     0
  9
$TDCREATE
 40
2450289.420678356
  9
$TDUPDATE
 40
2450289.420678356
  9
$TDINDWG
 40
0.0000000000
  9
$TDUSRTIMER
 40
0.0000000000
  9
$USRTIMER
 70
     1
  9
$ANGBASE
 50
0.0
  9
$ANGDIR
 70
     0
  9
$PDMODE
 70
     3
  9
$PDSIZE
 40
0.0
  9
$PLINEWID
 40
0.0
  9
$COORDS
 70
     1
  9
$SPLFRAME
 70
     0
  9
$SPLINETYPE
 70
     6
  9
$SPLINESEGS
 70
     8
  9
$ATTDIA
 70
     1
  9
$ATTREQ
 70
     1
  9
$HANDLING
 70
     1
  9
$HANDSEED
  5
409
  9
$SURFTAB1
 70
     6
  9
$SURFTAB2
 70
     6
  9
$SURFTYPE
 70
     6
  9
$SURFU
 70
     6
  9
$SURFV
 70
     6
  9
$UCSNAME
  2

  9
$UCSORG
 10
0.0
 20
0.0
 30
0.0
  9
$UCSXDIR
 10
1.0
 20
0.0
 30
0.0
  9
$UCSYDIR
 10
0.0
 20
1.0
 30
0.0
  9
$PUCSNAME
  2

  9
$PUCSORG
 10
0.0
 20
0.0
 30
0.0
  9
$PUCSXDIR
 10
1.0
 20
0.0
 30
0.0
  9
$PUCSYDIR
 10
0.0
 20
1.0
 30
0.0
  9
$USERI1
 70
     0
  9
$USERI2
 70
     0
  9
$USERI3
 70
     0
  9
$USERI4
 70
     0
  9
$USERI5
 70
     0
  9
$USERR1
 40
0.0
  9
$USERR2
 40
0.0
  9
$USERR3
 40
0.0
  9
$USERR4
 40
0.0
  9
$USERR5
 40
0.0
  9
$WORLDVIEW
 70
     1
  9
$SHADEDGE
 70
     3
  9
$SHADEDIF
 70
    70
  9
$TILEMODE
 70
     1
  9
$MAXACTVP
 70
    16
  9
$PINSBASE
 10
0.0
 20
0.0
 30
0.0
  9
$PLIMCHECK
 70
     0
  9
$PEXTMIN
 10
1.000000000000000E+20
 20
1.000000000000000E+20
 30
1.000000000000000E+20
  9
$PEXTMAX
 10
-1.000000000000000E+20
 20
-1.000000000000000E+20
 30
-1.000000000000000E+20
  9
$PLIMMIN
 10
0.0
 20
0.0
  9
$PLIMMAX
 10
12.0
 20
9.0
  9
$UNITMODE
 70
     0
  9
$VISRETAIN
 70
     0
  9
$PLINEGEN
 70
     0
  9
$PSLTSCALE
 70
     1
  9
$TREEDEPTH
 70
  3020
  9
$DWGCODEPAGE
  3
dos850
  0
ENDSEC
  0
SECTION
  2
TABLES
  0
TABLE
  2
VPORT
 70
     2
  0
VPORT
  2
*ACTIVE
 70
     0
 10
0.0
 20
0.0
 11
1.0
 21
1.0
 12
25.00000000000001
 22
15.92266198951258
 13
0.0
 23
0.0
 14
1.0
 24
1.0
 15
10.0
 25
10.0
 16
0.0
 26
0.0
 36
1.0
 17
0.0
 27
0.0
 37
0.0
 40
65.85519733098719
 41
1.275675675675675
 42
50.0
 43
0.0
 44
0.0
 50
0.0
 51
0.0
 71
     0
 72
   100
 73
     1
 74
     0
 75
     0
 76
     0
 77
     0
 78
     0
  0
ENDTAB
  0
TABLE
  2
LTYPE
 70
     2
  0
LTYPE
  2
CONTINUOUS
 70
    64
  3
Solid line
 72
    65
 73
     0
 40
0.0
  0
LTYPE
  2
GEN
 70
    64
  3
----------------------
 72
    65
 73
     2
 40
10000000000.0
 49
0.0
 49
10000000000.0
  0
ENDTAB
  0
TABLE
  2
LAYER
 70
     7
  0
LAYER
  2
0
 70
    64
 62
     7
  6
CONTINUOUS
  0
LAYER
  2
AIT$HILFE
 70
     0
 62
     3
  6
CONTINUOUS
  0
LAYER
  2
6
 70
    64
 62
     2
  6
CONTINUOUS
  0
LAYER
  2
DEFPOINTS
 70
    64
 62
     7
  6
GEN
  0
LAYER
  2
5
 70
     0
 62
     3
  6
CONTINUOUS
  0
LAYER
  2
ITEM_HILFE
 70
    64
 62
     3
  6
CONTINUOUS
  0
LAYER
  2
ITEM_50
 70
    64
 62
     7
  6
CONTINUOUS
  0
ENDTAB
  0
TABLE
  2
STYLE
 70
     3
  0
STYLE
  2
STANDARD
 70
    64
 40
0.0
 41
1.0
 50
0.0
 71
     0
 42
0.2
  3
GENISO.SHX
  4

  0
STYLE
  2
AIT$TSTIL
 70
     0
 40
0.0
 41
0.8
 50
0.0
 71
     0
 42
0.2
  3
iso8
  4

  0
STYLE
  2
GENPRESET
 70
    64
 40
0.0
 41
1.0
 50
0.0
 71
     0
 42
3.5
  3
GENPRESE
  4

  0
ENDTAB
  0
TABLE
  2
VIEW
 70
     0
  0
ENDTAB
  0
TABLE
  2
UCS
 70
     0
  0
ENDTAB
  0
TABLE
  2
APPID
 70
    16
  0
APPID
  2
ACAD
 70
    64
  0
APPID
  2
GENIUS_GENODEF_13
 70
    64
  0
APPID
  2
GENIUS_GENOENT_13
 70
    64
  0
APPID
  2
GENIUS_GENOLIS_13
 70
    64
  0
APPID
  2
GENIUS_GENOBJ-N-FIL_13
 70
    64
  0
ENDTAB
  0
TABLE
  2
DIMSTYLE
 70
     3
  0
DIMSTYLE
  2
GEN-ISO
 70
     0
  3

  4

  5

  6

  7

 40
1.0
 41
2.5
 42
1.0
 43
7.0
 44
2.0
 45
0.0
 46
0.0
 47
0.1
 48
0.1
140
3.5
141
0.0
142
0.0
143
0.0393701
144
1.0
145
0.0
146
0.71
147
0.6
 71
     0
 72
     0
 73
     0
 74
     0
 75
     0
 76
     0
 77
     1
 78
     8
170
     0
171
     2
172
     1
173
     0
174
     0
175
     0
176
   256
177
   256
178
     2
  0
DIMSTYLE
  2
GEN-ISO$4
 70
     0
  3

  4

  5

  6

  7

 40
1.0
 41
2.5
 42
1.0
 43
7.0
 44
2.0
 45
0.0
 46
0.0
 47
0.1
 48
0.1
140
3.5
141
0.0
142
0.0
143
0.0393701
144
1.0
145
0.0
146
0.71
147
0.6
 71
     0
 72
     0
 73
     0
 74
     1
 75
     0
 76
     0
 77
     1
 78
     8
170
     0
171
     2
172
     0
173
     0
174
     0
175
     0
176
   256
177
   256
178
     2
  0
DIMSTYLE
  2
GEN-ISO$3
 70
     0
  3

  4

  5

  6

  7

 40
1.0
 41
2.5
 42
1.0
 43
7.0
 44
2.0
 45
0.0
 46
0.0
 47
0.1
 48
0.1
140
3.5
141
0.0
142
0.0
143
0.0393701
144
1.0
145
0.0
146
0.71
147
0.6
 71
     0
 72
     0
 73
     0
 74
     1
 75
     0
 76
     0
 77
     1
 78
     8
170
     0
171
     2
172
     0
173
     0
174
     0
175
     0
176
   256
177
   256
178
     2
  0
ENDTAB
  0
ENDSEC
  0
SECTION
  2
BLOCKS
  0
BLOCK
  8
0
  5
F3
  2
GENPRESE
 70
    66
 10
0.0
 20
0.0
 30
0.0
  3
GENPRESE
  0
ATTDEF
  8
0
  5
CB
 10
0.0
 20
0.0
 30
0.0
 40
3.5
  1
A3
  3
PAPER FORMAT
  2
GEN-KO2
 70
     0
  7
GENPRESET
  0
ATTDEF
  8
0
  5
CC
 10
0.0
 20
-5.0
 30
0.0
 40
3.5
  1
item
  3
SCHRIFTKOPF
  2
GEN-KO3
 70
     0
  7
GENPRESET
  0
ATTDEF
  8
0
  5
CD
 10
0.0
 20
-10.0
 30
0.0
 40
3.5
  1
15
  3
ZEITPERIODE SICHERN
  2
GENSI
 70
     0
  7
GENPRESET
  0
ATTDEF
  8
0
  5
CE
 10
0.0
 20
-15.0
 30
0.0
 40
3.5
  1

  3
NAME ZUM SICHERN
  2
GENSD
 70
     0
  7
GENPRESET
  0
ATTDEF
  8
0
  5
CF
 10
0.0679278917532429
 20
-19.93786241836124
 30
0.0
 40
3.5
  1
0
  3
INFOPKT=0/TEXT=1/NO=2
  2
GENIF
 70
     0
  7
GENPRESET
  0
ATTDEF
  8
0
  5
D0
 10
0.0339639458766215
 20
-24.96893120918062
 30
0.0
 40
3.5
  1
2
  3
HORIZ=1/JUSTI=2/KREIS=3
  2
GENPOSVAR
 70
     0
  7
GENPRESET
  0
ATTDEF
  8
0
  5
D1
 10
0.0339639458766215
 20
-29.96893120918062
 30
0.0
 40
3.5
  1
0
  3
POSILIN.KREIS=0/PFEIL=1
  2
GENPOSBLK
 70
     0
  7
GENPRESET
  0
ATTDEF
  8
0
  5
D2
 10
0.0339639458766215
 20
-34.96893120918062
 30
0.0
 40
3.5
  1
1
  3
INKREMENT POSINR.
  2
GENPOSINC
 70
     0
  7
GENPRESET
  0
ATTDEF
  8
0
  5
D3
 10
0.0339639458766215
 20
-39.96893120918062
 30
0.0
 40
3.5
  1
GEN-POS
  3
MASKE POSITIONLISTE
  2
GENPARPOS
 70
     0
  7
GENPRESET
  0
ATTDEF
  8
0
  5
D4
 10
0.0339639458766215
 20
-44.96893120918062
 30
0.0
 40
3.5
  1
GEN-SUM
  3
MASKE SUMMENLISTE
  2
GENPARSUM
 70
     0
  7
GENPRESET
  0
ATTDEF
  8
0
  5
D5
 10
0.0339639458766215
 20
-49.96893120918062
 30
0.0
 40
3.5
  1
CANONII
  3
STANDARDDRUCKER
  2
GENPARDRU
 70
     0
  7
GENPRESET
  0
ATTDEF
  8
0
  5
D6
 10
0.0339639458766215
 20
-54.96893120918062
 30
0.0
 40
3.5
  1

  3
LAYERGRUPPE NORMTEILE
  2
GENSTDLG
 70
     0
  7
GENPRESET
  0
ATTDEF
  8
0
  5
D7
 10
0.0339639458766215
 20
-59.96893120918062
 30
0.0
 40
3.5
  1
13
  3
FARBE DIALOG-FELDER
  2
GENCOLBK
 70
     0
  7
GENPRESET
  0
ATTDEF
  8
0
  5
D8
 10
0.0339639458766215
 20
-64.96893120918062
 30
0.0
 40
3.5
  1
4
  3
FARBE DIALOG-ÜBERSCHRIFT
  2
GENCOLTI
 70
     0
  7
GENPRESET
  0
ATTDEF
  8
0
  5
D9
 10
0.0339639458766215
 20
-69.96893120918062
 30
0.0
 40
3.5
  1
2
  3
FARBE DIALOG-TEXT
  2
GENCOLTX
 70
     0
  7
GENPRESET
  0
ATTDEF
  8
0
  5
DA
 10
0.0339639458766215
 20
-74.96893120918062
 30
0.0
 40
3.5
  1
edlin
  3
TEXTEDITOR
  2
GENEDITOR
 70
     0
  7
GENPRESET
  0
ATTDEF
  8
0
  5
DB
 10
0.0339639458766215
 20
-79.96893120918062
 30
0.0
 40
3.5
  1
M
  3
BEM INCH/METRISCH
  2
GENINCH
 70
     0
  7
GENPRESET
  0
ATTDEF
  8
0
  5
DC
 10
0.0339639458766215
 20
-84.96893120918062
 30
0.0
 40
3.5
  1
ISO
  3
SYMBOLE/BEM ISO/ANSI
  2
GENDIMSTIL
 70
     0
  7
GENPRESET
  0
ENDBLK
  8
0
  5
F4
  0
ENDSEC
  0
SECTION
  2
ENTITIES
  0
INSERT
  8
0
  5
1E0
 66
     1
  2
GENPRESE
 10
31.96716474022861
 20
-34.49531645519778
 30
0.0
  0
ATTRIB
  8
0
  5
1E1
 10
31.96716474022861
 20
-34.49531645519778
 30
0.0
 40
3.5
  1
A3
  2
GEN-KO2
 70
     0
  7
GENPRESET
  0
ATTRIB
  8
0
  5
1E2
 10
31.96716474022861
 20
-39.49531645519778
 30
0.0
 40
3.5
  1
item
  2
GEN-KO3
 70
     0
  7
GENPRESET
  0
ATTRIB
  8
0
  5
1E3
 10
31.96716474022861
 20
-44.49531645519778
 30
0.0
 40
3.5
  1
15
  2
GENSI
 70
     0
  7
GENPRESET
  0
ATTRIB
  8
0
  5
1E4
 10
31.96716474022861
 20
-49.49531645519778
 30
0.0
 40
3.5
  1

  2
GENSD
 70
     0
  7
GENPRESET
  0
ATTRIB
  8
0
  5
1E5
 10
32.03509263198185
 20
-54.43317887355902
 30
0.0
 40
3.5
  1
0
  2
GENIF
 70
     0
  7
GENPRESET
  0
ATTRIB
  8
0
  5
1E6
 10
32.00112868610523
 20
-59.4642476643784
 30
0.0
 40
3.5
  1
2
  2
GENPOSVAR
 70
     0
  7
GENPRESET
  0
ATTRIB
  8
0
  5
1E7
 10
32.00112868610523
 20
-64.4642476643784
 30
0.0
 40
3.5
  1
0
  2
GENPOSBLK
 70
     0
  7
GENPRESET
  0
ATTRIB
  8
0
  5
1E8
 10
32.00112868610523
 20
-69.4642476643784
 30
0.0
 40
3.5
  1
1
  2
GENPOSINC
 70
     0
  7
GENPRESET
  0
ATTRIB
  8
0
  5
1E9
 10
32.00112868610523
 20
-74.4642476643784
 30
0.0
 40
3.5
  1
GEN-POS
  2
GENPARPOS
 70
     0
  7
GENPRESET
  0
ATTRIB
  8
0
  5
1EA
 10
32.00112868610523
 20
-79.4642476643784
 30
0.0
 40
3.5
  1
GEN-SUM
  2
GENPARSUM
 70
     0
  7
GENPRESET
  0
ATTRIB
  8
0
  5
1EB
 10
32.00112868610523
 20
-84.4642476643784
 30
0.0
 40
3.5
  1
CANONII
  2
GENPARDRU
 70
     0
  7
GENPRESET
  0
ATTRIB
  8
0
  5
1EC
 10
32.00112868610523
 20
-89.4642476643784
 30
0.0
 40
3.5
  1

  2
GENSTDLG
 70
     0
  7
GENPRESET
  0
ATTRIB
  8
0
  5
1ED
 10
32.00112868610523
 20
-94.4642476643784
 30
0.0
 40
3.5
  1
13
  2
GENCOLBK
 70
     0
  7
GENPRESET
  0
ATTRIB
  8
0
  5
1EE
 10
32.00112868610523
 20
-99.4642476643784
 30
0.0
 40
3.5
  1
4
  2
GENCOLTI
 70
     0
  7
GENPRESET
  0
ATTRIB
  8
0
  5
1EF
 10
32.00112868610523
 20
-104.4642476643784
 30
0.0
 40
3.5
  1
2
  2
GENCOLTX
 70
     0
  7
GENPRESET
  0
ATTRIB
  8
0
  5
1F0
 10
32.00112868610523
 20
-109.4642476643784
 30
0.0
 40
3.5
  1
c:\dos\edit
  2
GENEDITOR
 70
     0
  7
GENPRESET
  0
ATTRIB
  8
0
  5
1F1
 10
32.00112868610523
 20
-114.4642476643784
 30
0.0
 40
3.5
  1
metric
  2
GENINCH
 70
     0
  7
GENPRESET
  0
ATTRIB
  8
0
  5
1F2
 10
32.00112868610523
 20
-119.4642476643784
 30
0.0
 40
3.5
  1
ISO
  2
GENDIMSTIL
 70
     0
  7
GENPRESET
  0
SEQEND
  8
0
  5
1F3
  0
TEXT
  8
6
  5
22B
 10
738.657826506235
 20
686.545197428974
 30
0.0
 40
3.5
  1
  
  0
TEXT
  8
6
  5
22C
 10
738.657826506235
 20
676.545197428974
 30
0.0
 40
3.5
  1
  
  0
TEXT
  8
6
  5
22D
 10
738.657826506235
 20
666.545197428974
 30
0.0
 40
3.5
  1
  
  0
TEXT
  8
6
  5
239
 10
1009.236678373859
 20
938.7029780310801
 30
0.0
 40
3.5
  1
   
  0
TEXT
  8
6
  5
23A
 10
1009.236678373859
 20
949.7029780310801
 30
0.0
 40
3.5
  1
   
  0
TEXT
  8
6
  5
23B
 10
1009.236678373859
 20
960.7029780310801
 30
0.0
 40
3.5
  1
   
  0
POINT
  8
DEFPOINTS
  6
BYBLOCK
 62
     0
  5
23C
 10
7.111269837231134
 20
4.707106781185181
 30
0.0
  0
POINT
  8
DEFPOINTS
  6
BYBLOCK
 62
     0
  5
23D
 10
4.707106781188031
 20
7.111269837222145
 30
0.0
  0
POINT
  8
DEFPOINTS
  6
BYBLOCK
 62
     0
  5
23E
 10
15.00000000000579
 20
20.24999999999999
 30
0.0
  0
POINT
  8
DEFPOINTS
  6
BYBLOCK
 62
     0
  5
23F
 10
15.00000000000579
 20
9.749999999998628
 30
0.0
  0
POINT
  8
DEFPOINTS
  6
BYBLOCK
 62
     0
  5
241
 10
14.99999999999687
 20
12.49999999999999
 30
0.0
  0
ARC
  8
0
  5
249
 10
6.750000000001421
 20
16.60319625685666
 30
0.0
 40
3.0
 50
0.0
 51
45.00000000000019
  0
LINE
  8
0
  5
24A
 10
4.707106781188031
 20
22.88873016278932
 30
0.0
 11
8.871320343561023
 21
18.72451660041632
 31
0.0
  0
CIRCLE
  8
ITEM_50
  5
27E
 10
15.0
 20
14.99999999999999
 30
0.0
 40
2.5
  0
LINE
  8
0
  5
27F
 10
18.10000000000144
 20
28.91117283370544
 30
0.0
 11
18.10000000000144
 21
27.79999999999994
 31
0.0
  0
LINE
  8
0
  5
288
 10
11.90000000000145
 20
27.80000000000006
 30
0.0
 11
11.90000000000145
 21
28.91117283370521
 31
0.0
  0
POINT
  8
DEFPOINTS
  6
BYBLOCK
 62
     0
  5
28E
 10
-0.0000000000031264
 20
26.9999999999968
 30
0.0
  0
POINT
  8
DEFPOINTS
  6
BYBLOCK
 62
     0
  5
28F
 10
29.99999999999693
 20
26.9999999999968
 30
0.0
  0
POINT
  8
0
  5
2AB
 10
0.0
 20
0.0
 30
0.0
1001
GENIUS_GENODEF_13
1002
{
1000
HIER
1070
     1
1002
}
1002
{
1000
MANEDIT
1070
     0
1002
}
1002
{
1000
NOSEL
1070
     0
1002
}
1002
{
1000
BEHIND
1070
     0
1002
}
1002
{
1000
REACTOR
1002
}
1001
GENIUS_GENOBJ-N-FIL_13
1002
{
1000
OWNER
1000
GEN
1002
}
1001
GENIUS_GENOENT_13
1002
{
1000
MYREF
1005
2AB
1002
}
1002
{
1000
GRP
1005
0
1002
}
1001
GENIUS_GENOLIS_13
1002
{
1000
ENT
1005
2A3
1002
}
  0
POINT
  8
ITEM_HILFE
  5
2B5
 10
0.0
 20
15.0
 30
0.0
  0
POINT
  8
ITEM_HILFE
  5
2B7
 10
15.0
 20
29.99999999999999
 30
0.0
  0
POINT
  8
ITEM_HILFE
  5
2B8
 10
15.0
 20
-0.0000000000000071
 30
0.0
  0
POINT
  8
ITEM_HILFE
  5
2B9
 10
30.00000000000001
 20
14.99999999999999
 30
0.0
  0
POINT
  8
ITEM_HILFE
  5
2BA
 10
3.0
 20
15.0
 30
0.0
  0
POINT
  8
ITEM_HILFE
  5
2BB
 10
15.0
 20
2.999999999999992
 30
0.0
  0
POINT
  8
ITEM_HILFE
  5
2BC
 10
27.00000000000001
 20
14.99999999999999
 30
0.0
  0
POINT
  8
ITEM_HILFE
  5
2BD
 10
15.0
 20
26.99999999999999
 30
0.0
  0
POINT
  8
ITEM_HILFE
  5
2BE
 10
0.0
 20
30.0
 30
0.0
  0
POINT
  8
ITEM_HILFE
  5
2BF
 10
0.0
 20
0.0
 30
0.0
  0
POINT
  8
ITEM_HILFE
  5
2C0
 10
30.0
 20
30.0
 30
0.0
  0
POINT
  8
ITEM_HILFE
  5
2C1
 10
30.0
 20
0.0
 30
0.0
  0
POLYLINE
  8
ITEM_50
  5
2DA
 66
     1
 10
0.0
 20
0.0
 30
0.0
  0
VERTEX
  8
ITEM_50
  5
325
 10
4.707106781188031
 20
22.88873016278932
 30
0.0
  0
VERTEX
  8
ITEM_50
  5
324
 10
8.871320343561055
 20
18.72451660041631
 30
0.0
 42
-0.1989123673796589
  0
VERTEX
  8
ITEM_50
  5
323
 10
9.750000000001421
 20
16.60319625685666
 30
0.0
  0
VERTEX
  8
ITEM_50
  5
322
 10
9.750000000001421
 20
13.39680374315491
 30
0.0
 42
-0.1989123673796557
  0
VERTEX
  8
ITEM_50
  5
321
 10
8.87132034356108
 20
11.27548339959536
 30
0.0
  0
VERTEX
  8
ITEM_50
  5
320
 10
4.707106781187975
 20
7.111269837222158
 30
0.0
 42
-0.6681786379193023
  0
VERTEX
  8
ITEM_50
  5
31F
 10
3.000000000001421
 20
7.818376618408699
 30
0.0
  0
VERTEX
  8
ITEM_50
  5
31E
 10
3.000000000001466
 20
11.10000000000001
 30
0.0
 42
0.4142135623730586
  0
VERTEX
  8
ITEM_50
  5
31D
 10
2.200000000001523
 20
11.89999999999997
 30
0.0
  0
VERTEX
  8
ITEM_50
  5
31C
 10
1.000000000000103
 20
11.90000000000009
 30
0.0
 42
0.4142135623731254
  0
VERTEX
  8
ITEM_50
  5
31B
 10
-0.0000000000000036
 20
10.90000000000009
 30
0.0
  0
VERTEX
  8
ITEM_50
  5
31A
 10
0.0
 20
3.0
 30
0.0
 42
0.4142135623730951
  0
VERTEX
  8
ITEM_50
  5
319
 10
3.0
 20
0.0
 30
0.0
  0
VERTEX
  8
ITEM_50
  5
318
 10
10.90000000000003
 20
0.0
 30
0.0
 42
0.4142135623730951
  0
VERTEX
  8
ITEM_50
  5
317
 10
11.90000000000003
 20
1.0
 30
0.0
  0
VERTEX
  8
ITEM_50
  5
316
 10
11.90000000000002
 20
2.199999999998617
 30
0.0
 42
0.4142135623730951
  0
VERTEX
  8
ITEM_50
  5
315
 10
11.10000000000002
 20
2.999999999998628
 30
0.0
  0
VERTEX
  8
ITEM_50
  5
314
 10
7.818376618417687
 20
2.999999999998628
 30
0.0
 42
-0.6681786379193001
  0
VERTEX
  8
ITEM_50
  5
313
 10
7.111269837231134
 20
4.707106781185181
 30
0.0
  0
VERTEX
  8
ITEM_50
  5
312
 10
11.27548339960426
 20
8.871320343558277
 30
0.0
 42
-0.1989123673796571
  0
VERTEX
  8
ITEM_50
  5
311
 10
13.39680374314338
 20
9.750000000001357
 30
0.0
  0
VERTEX
  8
ITEM_50
  5
310
 10
16.6031962568478
 20
9.749999999998628
 30
0.0
 42
-0.1989123673796585
  0
VERTEX
  8
ITEM_50
  5
30F
 10
18.72451660040741
 20
8.871320343558288
 30
0.0
  0
VERTEX
  8
ITEM_50
  5
30E
 10
22.88873016278051
 20
4.707106781185176
 30
0.0
 42
-0.6681786379192988
  0
VERTEX
  8
ITEM_50
  5
30D
 10
22.18162338159396
 20
2.999999999998628
 30
0.0
  0
VERTEX
  8
ITEM_50
  5
30C
 10
18.90000000000003
 20
2.999999999998617
 30
0.0
 42
0.4142135623730951
  0
VERTEX
  8
ITEM_50
  5
30B
 10
18.10000000000001
 20
2.199999999998617
 30
0.0
  0
VERTEX
  8
ITEM_50
  5
30A
 10
18.10000000000001
 20
1.0
 30
0.0
 42
0.4142135623730951
  0
VERTEX
  8
ITEM_50
  5
309
 10
19.10000000000001
 20
0.0
 30
0.0
  0
VERTEX
  8
ITEM_50
  5
308
 10
27.0
 20
-0.0000000000000071
 30
0.0
 42
0.4142135623730951
  0
VERTEX
  8
ITEM_50
  5
307
 10
30.0
 20
2.999999999999992
 30
0.0
  0
VERTEX
  8
ITEM_50
  5
306
 10
30.0
 20
10.89999999999997
 30
0.0
 42
0.4142135623730951
  0
VERTEX
  8
ITEM_50
  5
305
 10
29.0
 20
11.89999999999997
 30
0.0
  0
VERTEX
  8
ITEM_50
  5
304
 10
27.80000000000143
 20
11.90000000000001
 30
0.0
 42
0.4142135623730951
  0
VERTEX
  8
ITEM_50
  5
303
 10
27.00000000000142
 20
11.10000000000001
 30
0.0
  0
VERTEX
  8
ITEM_50
  5
302
 10
27.00000000000142
 20
7.818376618417566
 30
0.0
 42
-0.6681786379193028
  0
VERTEX
  8
ITEM_50
  5
301
 10
25.29289321881486
 20
7.111269837231013
 30
0.0
  0
VERTEX
  8
ITEM_50
  5
300
 10
21.12867965644175
 20
11.27548339960415
 30
0.0
 42
-0.1989123673796553
  0
VERTEX
  8
ITEM_50
  5
2FF
 10
20.24999999999863
 20
13.39680374314331
 30
0.0
  0
VERTEX
  8
ITEM_50
  5
2FE
 10
20.25000000000142
 20
16.6031962568478
 30
0.0
 42
-0.1989123673796543
  0
VERTEX
  8
ITEM_50
  5
2FD
 10
21.12867965644176
 20
18.72451660040734
 30
0.0
  0
VERTEX
  8
ITEM_50
  5
2FC
 10
25.29289321881486
 20
22.88873016278055
 30
0.0
 42
-0.6681786379192971
  0
VERTEX
  8
ITEM_50
  5
2FB
 10
27.00000000000142
 20
22.18162338159401
 30
0.0
  0
VERTEX
  8
ITEM_50
  5
2FA
 10
27.00000000000148
 20
18.89999999999995
 30
0.0
 42
0.41421356237309
  0
VERTEX
  8
ITEM_50
  5
2F9
 10
27.80000000000148
 20
18.0999999999999
 30
0.0
  0
VERTEX
  8
ITEM_50
  5
2F8
 10
29.0
 20
18.0999999999999
 30
0.0
 42
0.4142135623730951
  0
VERTEX
  8
ITEM_50
  5
2F7
 10
30.0
 20
19.0999999999999
 30
0.0
  0
VERTEX
  8
ITEM_50
  5
2F6
 10
30.00000000000001
 20
26.99999999999999
 30
0.0
 42
0.4142135623730951
  0
VERTEX
  8
ITEM_50
  5
2F5
 10
27.00000000000001
 20
29.99999999999999
 30
0.0
  0
VERTEX
  8
ITEM_50
  5
2F4
 10
19.10000000000002
 20
29.99999999999999
 30
0.0
 42
0.4142135623730951
  0
VERTEX
  8
ITEM_50
  5
2F3
 10
18.10000000000002
 20
28.99999999999999
 30
0.0
  0
VERTEX
  8
ITEM_50
  5
2F2
 10
18.10000000000145
 20
27.79999999999994
 30
0.0
 42
0.4142135623730951
  0
VERTEX
  8
ITEM_50
  5
2F1
 10
18.90000000000003
 20
27.00000000000135
 30
0.0
  0
VERTEX
  8
ITEM_50
  5
2F0
 10
22.18162338158242
 20
27.00000000000135
 30
0.0
 42
-0.6681786379193001
  0
VERTEX
  8
ITEM_50
  5
2EF
 10
22.88873016276892
 20
25.2928932188148
 30
0.0
  0
VERTEX
  8
ITEM_50
  5
2EE
 10
18.72451660039579
 20
21.1286796564417
 30
0.0
 42
-0.1989123673796571
  0
VERTEX
  8
ITEM_50
  5
2ED
 10
16.60319625685667
 20
20.24999999999862
 30
0.0
  0
VERTEX
  8
ITEM_50
  5
2EC
 10
13.3968037431652
 20
20.24999999999999
 30
0.0
 42
-0.198912367379658
  0
VERTEX
  8
ITEM_50
  5
2EB
 10
11.27548339960554
 20
21.12867965644033
 30
0.0
  0
VERTEX
  8
ITEM_50
  5
2EA
 10
7.111269837232506
 20
25.29289321881344
 30
0.0
 42
-0.6681786379192973
  0
VERTEX
  8
ITEM_50
  5
2E9
 10
7.818376618418994
 20
26.99999999999999
 30
0.0
  0
VERTEX
  8
ITEM_50
  5
2E8
 10
11.10000000000144
 20
27.00000000000006
 30
0.0
 42
0.4142135623730951
  0
VERTEX
  8
ITEM_50
  5
2E7
 10
11.90000000000004
 20
27.80000000000006
 30
0.0
  0
VERTEX
  8
ITEM_50
  5
2E6
 10
11.90000000000004
 20
28.99999999999999
 30
0.0
 42
0.4142135623730951
  0
VERTEX
  8
ITEM_50
  5
2E2
 10
10.90000000000004
 20
29.99999999999999
 30
0.0
  0
VERTEX
  8
ITEM_50
  5
2DB
 10
2.999999999999996
 20
29.99999999999999
 30
0.0
 42
0.4142135623730951
  0
VERTEX
  8
ITEM_50
  5
2DC
 10
-0.0000000000000036
 20
26.99999999999999
 30
0.0
  0
VERTEX
  8
ITEM_50
  5
2DE
 10
0.0
 20
19.0999999999999
 30
0.0
 42
0.4142135623730951
  0
VERTEX
  8
ITEM_50
  5
2DF
 10
0.9999999999999964
 20
18.0999999999999
 30
0.0
  0
VERTEX
  8
ITEM_50
  5
2E0
 10
2.200000000001466
 20
18.0999999999999
 30
0.0
 42
0.4142135623730951
  0
VERTEX
  8
ITEM_50
  5
2E1
 10
3.000000000001466
 20
18.89999999999997
 30
0.0
  0
VERTEX
  8
ITEM_50
  5
2E3
 10
3.000000000001477
 20
22.18162338160276
 30
0.0
 42
-0.6681786379192988
  0
VERTEX
  8
ITEM_50
  5
2E4
 10
4.707106781188025
 20
22.88873016278931
 30
0.0
 42
0.6681786379192988
  0
VERTEX
  8
ITEM_50
  5
2E5
 10
3.000000000001477
 20
22.18162338160276
 30
0.0
  0
SEQEND
  8
ITEM_50
  5
2DD
  0
LINE
  8
ITEM_50
  5
32B
 10
50.00000000000002
 20
29.99999999999998
 30
0.0
 11
51.00000000000002
 21
29.99999999999998
 31
0.0
  0
LINE
  8
ITEM_50
  5
332
 10
50.00000000000002
 20
29.99999999999998
 30
0.0
 11
50.00000000000001
 21
-0.0000000000000071
 31
0.0
  0
LINE
  8
ITEM_50
  5
338
 10
51.00000000000002
 20
29.99999999999998
 30
0.0
 11
51.00000000000002
 21
-0.0000000000000071
 31
0.0
  0
LINE
  8
ITEM_50
  5
33D
 10
50.00000000000001
 20
-0.0000000000000071
 30
0.0
 11
51.00000000000002
 21
-0.0000000000000071
 31
0.0
  0
LINE
  8
ITEM_50
  5
33E
 10
50.00000000000001
 20
18.0999999999999
 30
0.0
 11
51.00000000000002
 21
18.0999999999999
 31
0.0
  0
LINE
  8
ITEM_50
  5
33F
 10
50.00000000000001
 20
11.90000000000001
 30
0.0
 11
51.00000000000002
 21
11.90000000000001
 31
0.0
  0
POINT
  8
ITEM_HILFE
  5
340
 10
50.00000000000002
 20
30.0
 30
0.0
  0
POINT
  8
ITEM_HILFE
  5
341
 10
50.00000000000002
 20
0.0
 30
0.0
  0
ENDSEC
  0
EOF
